Make your own free website on Tripod.com
"I'll Stick Around"
Intro/Chorus:
E:----------------------------|
B:----------------------------|
G:------------8---8-------5---|
D:-5---5------8---8---8---5---|
A:-5---5------6---6---8---3---|
E:-3---3--------------6-------|

Verse:
E:----------------------------------------------------------------|
B:----------------------------------------------------------------|
G:---------------------------------5---5---5---5------------------|
D:-5---5---5---5---3---3---3---3---5---5---5---5---5---5---5---5--|
A:-5---5---5---5---3---3---3---3---3---3---3---3---5---5---5---5--|
E:-3---3---3---3---1---1---1---1-------------------3---3---3---3--|

E:-----------------------------------------------|
B:-----------------------------------------------|
G:-----------------5---5---5---5-----------------|
D:-3---3---3---3---5---5---5---5---5---5---5---5-|
A:-3---3---3---3---3---3---3---3---5---5---5---5-|
E:-1---1---1---1-------------------3---3---3---3-|

Pre-Chorus:
E:------------------------------------------------------|
B:------------------------------------------------------|
G:----------------------------------5---5---5---5---5~~-|
D:-8---8---8---8---5---5---5----5---5---5---5---5---5~~-|
A:-8---8---8---8---5---5---5----5---3---3---3---3---3~~-|
E:-6---6---6---6---3---3---3----3-----------------------|

Bridge:
E:---------------------------------------------------------------------------|
B:---------------------------------------------------------------------------|
G:-8-8-8-8-8-8-8-8--10-10-10-10-10-10-10-10-------------------7-7-7-7-7-7-7-7|
D:-8-8-8-8-8-8-8-8--10-10-10-10-10-10-10-10--5-5-5-5-5-5-5-5--7-7-7-7-7-7-7-7|
A:-6-6-6-6-6-6-6-6--8--8--8--8--8--8--8--8---5-5-5-5-5-5-5-5--5-5-5-5-5-5-5-5|
E:-------------------------------------------3-3-3-3-3-3-3-3-----------------|

"I'll Stick Around" lyrics