Make your own free website on Tripod.com
Intro/Verse:
"Stick it to the mailman..."
E:----------------------------------------------|
B:----------------------------------------------|
G:----------------------------------------------|
D:-6/8---8---8---8---8---6/8---8---8---8----9\8-|
A:-6/8---8---8---8---8---6/8---8---8---8----9\8-|
E:-4/6---6---6---6---6---4/6---6---6---6----7\6-|
Pre-Chorus:
"Take that to the bank..."
E:--------------------|--------------------|
B:--------------------|--------------------|
G:--------------------|-8----8--8----8--8--|
D:-4----4--4----4--4--|-8----8--8----8--8--|
A:-4----4--4----4--4--|-6----6--6----6--6--|
E:-2----2--2----2--2--|--------------------|

E:--------------------|--------------------|
B:--------------------|--------------------|
G:--------------------|--------------------|
D:-8----8--8----8--3--|--------3-----3-----|
A:-8----8--8----8--3--|--------3-----3-----|
E:-6----6--6----6--1--|--------1-----1-----|

E:-------------------------|
B:-------------------------|
G:-------------------------|
D:-6--6--6--6--6--6--------|
a:-6--6--6--6--6--6--------|
E:-4--4--4--4--4--4--------|
Chorus:
"Hey, there boy, while you..."
E:---------------------------------------|----------|
B:---------------------------------------|----------|
G:-----------9------9--------------------|----------|
D:-6------6--9------9--8------------8--8-|-8--------|
A:-6------6--7------7--8------------8--8-|-6----8---|
E:-4------4------------6------------6--6-|------6---|
Bridge:
"I want to swim..."
E----------------------------------------------------|
B:---------------------------------------------------|
G:---------------------------------------------------|
D:-4---3---3---3---2---3---3---2---3---3---4-----4---|
A:-4---3---3---3---2---3---3---2---3---3---4-----4---|
E:-2---1---1---1---0---1---1---0---1---1---2-----2---|

"Wattershed" lyrics